ISO-10303-21;
HEADER;
FILE_DESCRIPTION (( 'STEP AP214' ),
    '1' );
FILE_NAME ('FULLVAC RC1KF2516.STEP',
    '2019-04-24T08:33:55',
    ( '' ),
    ( '' ),
    'SwSTEP 2.0',
    'SolidWorks 2017',
    '' );
FILE_SCHEMA (( 'AUTOMOTIVE_DESIGN' ));
ENDSEC;

DATA;
#1 = EDGE_CURVE ( 'NONE', #352, #352, #202, .T. ) ;
#2 = CARTESIAN_POINT ( 'NONE',  ( 39.89999999999999900, 0.0000000000000000000, 8.634999999999999800 ) ) ;
#3 = FACE_OUTER_BOUND ( 'NONE', #262, .T. ) ;
#4 = ORIENTED_EDGE ( 'NONE', *, *, #12, .T. ) ;
#5 = CIRCLE ( 'NONE', #106, 13.08000000000000000 ) ;
#6 = ORIENTED_EDGE ( 'NONE', *, *, #27, .F. ) ;
#7 = AXIS2_PLACEMENT_3D ( 'NONE', #309, #101, #146 ) ;
#8 = CARTESIAN_POINT ( 'NONE',  ( 36.69999999998842100, 0.0000000000000000000, 0.0000000000000000000 ) ) ;
#9 = DIRECTION ( 'NONE',  ( -1.000000000000000000, -0.0000000000000000000, -0.0000000000000000000 ) ) ;
#10 = ORIENTED_EDGE ( 'NONE', *, *, #1, .T. ) ;
#11 = ADVANCED_FACE ( 'NONE', ( #224, #132 ), #312, .T. ) ;
#12 = EDGE_CURVE ( 'NONE', #241, #241, #45, .T. ) ;
#13 = DIRECTION ( 'NONE',  ( 1.000000000000000000, -1.086919471163192800E-017, -0.0000000000000000000 ) ) ;
#14 = DIRECTION ( 'NONE',  ( 0.0000000000000000000, 0.0000000000000000000, -1.000000000000000000 ) ) ;
#15 = DIRECTION ( 'NONE',  ( 0.0000000000000000000, 0.0000000000000000000, 1.000000000000000000 ) ) ;
#16 = EDGE_LOOP ( 'NONE', ( #88 ) ) ;
#17 = DIRECTION ( 'NONE',  ( -1.000000000000000000, 0.0000000000000000000, 0.0000000000000000000 ) ) ;
#18 = DIRECTION ( 'NONE',  ( -1.000000000000000000, 0.0000000000000000000, 0.0000000000000000000 ) ) ;
#19 = EDGE_CURVE ( 'NONE', #256, #256, #150, .T. ) ;
#20 = FACE_BOUND ( 'NONE', #97, .T. ) ;
#21 = EDGE_LOOP ( 'NONE', ( #277 ) ) ;
#22 = DIRECTION ( 'NONE',  ( 0.0000000000000000000, 0.0000000000000000000, -1.000000000000000000 ) ) ;
#23 = DIRECTION ( 'NONE',  ( 0.0000000000000000000, 0.0000000000000000000, -1.000000000000000000 ) ) ;
#24 = EDGE_LOOP ( 'NONE', ( #144 ) ) ;
#25 = DIRECTION ( 'NONE',  ( 0.0000000000000000000, 0.0000000000000000000, 1.000000000000000000 ) ) ;
#26 = CARTESIAN_POINT ( 'NONE',  ( 31.79999999999939700, 0.0000000000000000000, -9.549999999994906100 ) ) ;
#27 = EDGE_CURVE ( 'NONE', #176, #176, #169, .T. ) ;
#28 = FACE_BOUND ( 'NONE', #83, .T. ) ;
#29 = FACE_OUTER_BOUND ( 'NONE', #123, .T. ) ;
#30 = ORIENTED_EDGE ( 'NONE', *, *, #142, .F. ) ;
#31 = SURFACE_SIDE_STYLE ('',( #306 ) ) ;
#32 = VERTEX_POINT ( 'NONE', #134 ) ;
#33 = EDGE_LOOP ( 'NONE', ( #191 ) ) ;
#34 = ADVANCED_FACE ( 'NONE', ( #290, #299 ), #353, .F. ) ;
#35 = PRESENTATION_STYLE_ASSIGNMENT (( #180 ) ) ;
#36 = EDGE_LOOP ( 'NONE', ( #143 ) ) ;
#37 = AXIS2_PLACEMENT_3D ( 'NONE', #73, #17, #231 ) ;
#38 = DIRECTION ( 'NONE',  ( -1.000000000000000000, 0.0000000000000000000, 0.0000000000000000000 ) ) ;
#39 = ADVANCED_FACE ( 'NONE', ( #272, #252 ), #44, .F. ) ;
#40 = FACE_BOUND ( 'NONE', #24, .T. ) ;
#41 = CARTESIAN_POINT ( 'NONE',  ( 0.0000000000000000000, 0.0000000000000000000, 0.0000000000000000000 ) ) ;
#42 = DIRECTION ( 'NONE',  ( -1.000000000000000000, -0.0000000000000000000, -0.0000000000000000000 ) ) ;
#43 = AXIS2_PLACEMENT_3D ( 'NONE', #170, #9, #64 ) ;
#44 = PLANE ( 'NONE',  #61 ) ;
#45 = CIRCLE ( 'NONE', #114, 12.85910346561515800 ) ;
#46 = CARTESIAN_POINT ( 'NONE',  ( 39.89999999999999900, 1.937561997600620000E-016, -4.849738739522680400E-016 ) ) ;
#47 = PRODUCT_DEFINITION_FORMATION_WITH_SPECIFIED_SOURCE ( 'ANY', '', #288, .NOT_KNOWN. ) ;
#48 = PLANE ( 'NONE',  #238 ) ;
#49 = AXIS2_PLACEMENT_3D ( 'NONE', #205, #98, #124 ) ;
#50 = DIRECTION ( 'NONE',  ( 0.0000000000000000000, 0.0000000000000000000, -1.000000000000000000 ) ) ;
#51 = CIRCLE ( 'NONE', #197, 11.05000000000518100 ) ;
#52 = EDGE_LOOP ( 'NONE', ( #6 ) ) ;
#53 = SURFACE_SIDE_STYLE ('',( #339 ) ) ;
#54 = FACE_OUTER_BOUND ( 'NONE', #261, .T. ) ;
#55 = FACE_OUTER_BOUND ( 'NONE', #16, .T. ) ;
#56 = CARTESIAN_POINT ( 'NONE',  ( 37.35999999999999900, 0.0000000000000000000, 8.634999999999999800 ) ) ;
#57 = EDGE_LOOP ( 'NONE', ( #171 ) ) ;
#58 =( NAMED_UNIT ( * ) PLANE_ANGLE_UNIT ( ) SI_UNIT ( $, .RADIAN. ) );
#59 = STYLED_ITEM ( 'NONE', ( #35 ), #194 ) ;
#60 = VERTEX_POINT ( 'NONE', #56 ) ;
#61 = AXIS2_PLACEMENT_3D ( 'NONE', #178, #99, #94 ) ;
#62 = EDGE_LOOP ( 'NONE', ( #90 ) ) ;
#63 = ORIENTED_EDGE ( 'NONE', *, *, #190, .T. ) ;
#64 = DIRECTION ( 'NONE',  ( 0.0000000000000000000, 0.0000000000000000000, -1.000000000000000000 ) ) ;
#65 = EDGE_LOOP ( 'NONE', ( #4 ) ) ;
#66 = ORIENTED_EDGE ( 'NONE', *, *, #85, .F. ) ;
#67 = AXIS2_PLACEMENT_3D ( 'NONE', #68, #175, #14 ) ;
#68 = CARTESIAN_POINT ( 'NONE',  ( 0.0000000000000000000, 0.0000000000000000000, 0.0000000000000000000 ) ) ;
#69 = DIRECTION ( 'NONE',  ( 0.0000000000000000000, 0.0000000000000000000, -1.000000000000000000 ) ) ;
#70 = DIRECTION ( 'NONE',  ( 0.0000000000000000000, -1.000000000000000000, 0.0000000000000000000 ) ) ;
#71 = FACE_BOUND ( 'NONE', #33, .T. ) ;
#72 = EDGE_LOOP ( 'NONE', ( #63 ) ) ;
#73 = CARTESIAN_POINT ( 'NONE',  ( 31.79999999999939700, 0.0000000000000000000, 0.0000000000000000000 ) ) ;
#74 = EDGE_CURVE ( 'NONE', #265, #265, #162, .T. ) ;
#75 = DIRECTION ( 'NONE',  ( -1.000000000000000000, -0.0000000000000000000, -0.0000000000000000000 ) ) ;
#76 = EDGE_LOOP ( 'NONE', ( #276 ) ) ;
#77 = EDGE_LOOP ( 'NONE', ( #331 ) ) ;
#78 = DIRECTION ( 'NONE',  ( 1.000000000000000000, -0.0000000000000000000, -0.0000000000000000000 ) ) ;
#79 = PRODUCT_DEFINITION_SHAPE ( 'NONE', 'NONE',  #110 ) ;
#80 = DIRECTION ( 'NONE',  ( 1.000000000000000000, -0.0000000000000000000, 0.0000000000000000000 ) ) ;
#81 = CARTESIAN_POINT ( 'NONE',  ( 37.35999999999999900, 2.142874010085230000E-016, 5.166983446056901400E-016 ) ) ;
#82 = FACE_OUTER_BOUND ( 'NONE', #182, .T. ) ;
#83 = EDGE_LOOP ( 'NONE', ( #347 ) ) ;
#84 = APPLICATION_PROTOCOL_DEFINITION ( 'draft international standard', 'automotive_design', 1998, #113 ) ;
#85 = EDGE_CURVE ( 'NONE', #206, #206, #140, .T. ) ;
#86 = ADVANCED_BREP_SHAPE_REPRESENTATION ( 'FULLVAC RC1KF2516', ( #194, #220 ), #174 ) ;
#87 = CARTESIAN_POINT ( 'NONE',  ( 35.23967690125039800, 0.0000000000000000000, -9.550000000000000700 ) ) ;
#88 = ORIENTED_EDGE ( 'NONE', *, *, #196, .F. ) ;
#89 = EDGE_CURVE ( 'NONE', #60, #60, #117, .T. ) ;
#90 = ORIENTED_EDGE ( 'NONE', *, *, #291, .T. ) ;
#91 = PRESENTATION_LAYER_ASSIGNMENT (  '', '', ( #59 ) ) ;
#92 = FACE_OUTER_BOUND ( 'NONE', #72, .T. ) ;
#93 = ADVANCED_FACE ( 'NONE', ( #92, #284 ), #122, .T. ) ;
#94 = DIRECTION ( 'NONE',  ( 0.0000000000000000000, 0.0000000000000000000, -1.000000000000000000 ) ) ;
#95 = ADVANCED_FACE ( 'NONE', ( #346, #135 ), #322, .T. ) ;
#96 = CARTESIAN_POINT ( 'NONE',  ( 2.540000000000555600, 0.0000000000000000000, 0.0000000000000000000 ) ) ;
#97 = EDGE_LOOP ( 'NONE', ( #66 ) ) ;
#98 = DIRECTION ( 'NONE',  ( -1.000000000000000000, 0.0000000000000000000, 0.0000000000000000000 ) ) ;
#99 = DIRECTION ( 'NONE',  ( 1.000000000000000000, -0.0000000000000000000, 0.0000000000000000000 ) ) ;
#100 = AXIS2_PLACEMENT_3D ( 'NONE', #254, #304, #15 ) ;
#101 = DIRECTION ( 'NONE',  ( -1.000000000000000000, -0.0000000000000000000, -0.0000000000000000000 ) ) ;
#102 = FACE_OUTER_BOUND ( 'NONE', #65, .T. ) ;
#103 = CYLINDRICAL_SURFACE ( 'NONE', #67, 19.94999999999999900 ) ;
#104 = DIRECTION ( 'NONE',  ( 1.000000000000000000, 0.0000000000000000000, 0.0000000000000000000 ) ) ;
#105 = PLANE ( 'NONE',  #233 ) ;
#106 = AXIS2_PLACEMENT_3D ( 'NONE', #107, #75, #23 ) ;
#107 = CARTESIAN_POINT ( 'NONE',  ( 2.540000000000000000, 0.0000000000000000000, 0.0000000000000000000 ) ) ;
#108 = VERTEX_POINT ( 'NONE', #189 ) ;
#109 = APPLICATION_CONTEXT ( 'automotive_design' ) ;
#110 = PRODUCT_DEFINITION ( 'UNKNOWN', '', #47, #237 ) ;
#111 = EDGE_LOOP ( 'NONE', ( #281 ) ) ;
#112 = EDGE_LOOP ( 'NONE', ( #327 ) ) ;
#113 = APPLICATION_CONTEXT ( 'automotive_design' ) ;
#114 = AXIS2_PLACEMENT_3D ( 'NONE', #342, #13, #70 ) ;
#115 = EDGE_LOOP ( 'NONE', ( #198 ) ) ;
#116 = ADVANCED_FACE ( 'NONE', ( #55, #29 ), #330, .F. ) ;
#117 = CIRCLE ( 'NONE', #201, 8.634999999999999800 ) ;
#118 = ADVANCED_FACE ( 'NONE', ( #3, #228 ), #103, .T. ) ;
#119 = CARTESIAN_POINT ( 'NONE',  ( 0.0000000000000000000, 0.0000000000000000000, 0.0000000000000000000 ) ) ;
#120 = DIRECTION ( 'NONE',  ( -1.000000000000000000, 0.0000000000000000000, 0.0000000000000000000 ) ) ;
#121 = FACE_OUTER_BOUND ( 'NONE', #77, .T. ) ;
#122 = CYLINDRICAL_SURFACE ( 'NONE', #49, 15.00000000000000000 ) ;
#123 = EDGE_LOOP ( 'NONE', ( #158 ) ) ;
#124 = DIRECTION ( 'NONE',  ( 0.0000000000000000000, 0.0000000000000000000, 1.000000000000000000 ) ) ;
#125 = CARTESIAN_POINT ( 'NONE',  ( 2.540000000000562700, 0.0000000000000000000, 0.0000000000000000000 ) ) ;
#126 = AXIS2_PLACEMENT_3D ( 'NONE', #315, #104, #22 ) ;
#127 = CARTESIAN_POINT ( 'NONE',  ( 31.80000000000000100, 0.0000000000000000000, 0.0000000000000000000 ) ) ;
#128 = DIRECTION ( 'NONE',  ( 1.000000000000000000, -0.0000000000000000000, -0.0000000000000000000 ) ) ;
#129 = VERTEX_POINT ( 'NONE', #274 ) ;
#130 = DIRECTION ( 'NONE',  ( -1.000000000000000000, 0.0000000000000000000, 0.0000000000000000000 ) ) ;
#131 = CARTESIAN_POINT ( 'NONE',  ( 36.69999999998842100, 0.0000000000000000000, -15.00000000000310300 ) ) ;
#132 = FACE_OUTER_BOUND ( 'NONE', #57, .T. ) ;
#133 = AXIS2_PLACEMENT_3D ( 'NONE', #152, #18, #318 ) ;
#134 = CARTESIAN_POINT ( 'NONE',  ( 2.540000000000562700, 0.0000000000000000000, 11.05000000000518100 ) ) ;
#135 = FACE_OUTER_BOUND ( 'NONE', #253, .T. ) ;
#136 = EDGE_LOOP ( 'NONE', ( #166 ) ) ;
#137 = AXIS2_PLACEMENT_3D ( 'NONE', #81, #193, #242 ) ;
#138 = STYLED_ITEM ( 'NONE', ( #245 ), #86 ) ;
#139 = CIRCLE ( 'NONE', #345, 12.70000000000509200 ) ;
#140 = CIRCLE ( 'NONE', #7, 13.08000000000000000 ) ;
#141 = PRODUCT_RELATED_PRODUCT_CATEGORY ( 'part', '', ( #288 ) ) ;
#142 = EDGE_CURVE ( 'NONE', #278, #278, #212, .T. ) ;
#143 = ORIENTED_EDGE ( 'NONE', *, *, #74, .F. ) ;
#144 = ORIENTED_EDGE ( 'NONE', *, *, #196, .T. ) ;
#145 = ADVANCED_FACE ( 'NONE', ( #280, #181 ), #246, .F. ) ;
#146 = DIRECTION ( 'NONE',  ( 0.0000000000000000000, 0.0000000000000000000, -1.000000000000000000 ) ) ;
#147 = EDGE_LOOP ( 'NONE', ( #30 ) ) ;
#148 = CARTESIAN_POINT ( 'NONE',  ( 5.100000000000593800, 0.0000000000000000000, 0.0000000000000000000 ) ) ;
#149 = DIRECTION ( 'NONE',  ( 0.0000000000000000000, 0.0000000000000000000, 1.000000000000000000 ) ) ;
#150 = CIRCLE ( 'NONE', #338, 7.849999999999999600 ) ;
#151 = ORIENTED_EDGE ( 'NONE', *, *, #1, .F. ) ;
#152 = CARTESIAN_POINT ( 'NONE',  ( 39.89999999999999900, 0.0000000000000000000, 0.0000000000000000000 ) ) ;
#153 =( NAMED_UNIT ( * ) PLANE_ANGLE_UNIT ( ) SI_UNIT ( $, .RADIAN. ) );
#154 = AXIS2_PLACEMENT_3D ( 'NONE', #239, #78, #294 ) ;
#155 = FILL_AREA_STYLE_COLOUR ( '', #260 ) ;
#156 = CARTESIAN_POINT ( 'NONE',  ( 5.100000000000595600, 0.0000000000000000000, 0.0000000000000000000 ) ) ;
#157 = AXIS2_PLACEMENT_3D ( 'NONE', #41, #230, #69 ) ;
#158 = ORIENTED_EDGE ( 'NONE', *, *, #89, .F. ) ;
#159 = CARTESIAN_POINT ( 'NONE',  ( 2.540000000000000000, 0.0000000000000000000, -13.08000000000000000 ) ) ;
#160 = ADVANCED_FACE ( 'NONE', ( #236, #303 ), #161, .F. ) ;
#161 = CONICAL_SURFACE ( 'NONE', #275, 11.05000000000518100, 0.1089314031232833700 ) ;
#162 = CIRCLE ( 'NONE', #37, 9.549999999994906100 ) ;
#163 = CARTESIAN_POINT ( 'NONE',  ( 3.200000000015087700, 0.0000000000000000000, -19.95000000000404200 ) ) ;
#164 = EDGE_CURVE ( 'NONE', #108, #108, #292, .T. ) ;
#165 = VERTEX_POINT ( 'NONE', #2 ) ;
#166 = ORIENTED_EDGE ( 'NONE', *, *, #164, .T. ) ;
#167 = MECHANICAL_DESIGN_GEOMETRIC_PRESENTATION_REPRESENTATION (  '', ( #138 ), #286 ) ;
#168 = FACE_BOUND ( 'NONE', #218, .T. ) ;
#169 = CIRCLE ( 'NONE', #244, 15.00000000000310300 ) ;
#170 = CARTESIAN_POINT ( 'NONE',  ( 35.23967690125039800, 0.0000000000000000000, 0.0000000000000000000 ) ) ;
#171 = ORIENTED_EDGE ( 'NONE', *, *, #27, .T. ) ;
#172 = DIRECTION ( 'NONE',  ( 0.0000000000000000000, 0.0000000000000000000, -1.000000000000000000 ) ) ;
#173 = ADVANCED_FACE ( 'NONE', ( #20, #298 ), #48, .F. ) ;
#174 =( GEOMETRIC_REPRESENTATION_CONTEXT ( 3 ) GLOBAL_UNCERTAINTY_ASSIGNED_CONTEXT ( ( #264 ) ) GLOBAL_UNIT_ASSIGNED_CONTEXT ( ( #319, #219, #295 ) ) REPRESENTATION_CONTEXT ( 'NONE', 'WORKASPACE' ) );
#175 = DIRECTION ( 'NONE',  ( 1.000000000000000000, 0.0000000000000000000, 0.0000000000000000000 ) ) ;
#176 = VERTEX_POINT ( 'NONE', #131 ) ;
#177 = AXIS2_PLACEMENT_3D ( 'NONE', #305, #336, #307 ) ;
#178 = CARTESIAN_POINT ( 'NONE',  ( 2.540000000000000000, 0.0000000000000000000, -1.334865011070619900E-016 ) ) ;
#179 = DIRECTION ( 'NONE',  ( 0.0000000000000000000, 0.0000000000000000000, 1.000000000000000000 ) ) ;
#180 = SURFACE_STYLE_USAGE ( .BOTH. , #53 ) ;
#181 = FACE_OUTER_BOUND ( 'NONE', #250, .T. ) ;
#182 = EDGE_LOOP ( 'NONE', ( #335 ) ) ;
#183 = DIRECTION ( 'NONE',  ( 0.0000000000000000000, 0.0000000000000000000, -1.000000000000000000 ) ) ;
#184 = EDGE_CURVE ( 'NONE', #326, #326, #5, .T. ) ;
#185 = SHAPE_DEFINITION_REPRESENTATION ( #79, #86 ) ;
#186 = ORIENTED_EDGE ( 'NONE', *, *, #184, .F. ) ;
#187 = FILL_AREA_STYLE ('',( #155 ) ) ;
#188 = SURFACE_STYLE_USAGE ( .BOTH. , #31 ) ;
#189 = CARTESIAN_POINT ( 'NONE',  ( 31.80000000000000100, 0.0000000000000000000, 7.849999999999999600 ) ) ;
#190 = EDGE_CURVE ( 'NONE', #321, #321, #302, .T. ) ;
#191 = ORIENTED_EDGE ( 'NONE', *, *, #19, .T. ) ;
#192 = DIRECTION ( 'NONE',  ( 0.0000000000000000000, 0.0000000000000000000, -1.000000000000000000 ) ) ;
#193 = DIRECTION ( 'NONE',  ( 1.000000000000000000, -0.0000000000000000000, 0.0000000000000000000 ) ) ;
#194 = MANIFOLD_SOLID_BREP ( '\X2\5BE69AD4\X0\2', #208 ) ;
#195 = FACE_OUTER_BOUND ( 'NONE', #36, .T. ) ;
#196 = EDGE_CURVE ( 'NONE', #165, #165, #217, .T. ) ;
#197 = AXIS2_PLACEMENT_3D ( 'NONE', #125, #130, #313 ) ;
#198 = ORIENTED_EDGE ( 'NONE', *, *, #184, .T. ) ;
#199 = ORIENTED_EDGE ( 'NONE', *, *, #296, .F. ) ;
#200 = DIRECTION ( 'NONE',  ( 1.000000000000000000, 0.0000000000000000000, 0.0000000000000000000 ) ) ;
#201 = AXIS2_PLACEMENT_3D ( 'NONE', #337, #258, #259 ) ;
#202 = CIRCLE ( 'NONE', #43, 9.550000000000000700 ) ;
#203 = ORIENTED_EDGE ( 'NONE', *, *, #291, .F. ) ;
#204 = DIRECTION ( 'NONE',  ( 0.0000000000000000000, 0.0000000000000000000, 1.000000000000000000 ) ) ;
#205 = CARTESIAN_POINT ( 'NONE',  ( 39.89999999999999900, 0.0000000000000000000, 0.0000000000000000000 ) ) ;
#206 = VERTEX_POINT ( 'NONE', #323 ) ;
#207 = EDGE_LOOP ( 'NONE', ( #341 ) ) ;
#208 = CLOSED_SHELL ( 'NONE', ( #95, #300, #328, #11, #270, #93, #118, #226, #173, #116, #145, #333, #39, #34, #160 ) ) ;
#209 = CARTESIAN_POINT ( 'NONE',  ( 36.69999999998842100, 0.0000000000000000000, 0.0000000000000000000 ) ) ;
#210 = DIRECTION ( 'NONE',  ( 1.000000000000000000, -0.0000000000000000000, 0.0000000000000000000 ) ) ;
#211 = CARTESIAN_POINT ( 'NONE',  ( 3.200000000015087700, 0.0000000000000000000, 0.0000000000000000000 ) ) ;
#212 = CIRCLE ( 'NONE', #216, 19.94999999999999900 ) ;
#213 = CARTESIAN_POINT ( 'NONE',  ( 0.0000000000000000000, -9.456012226724710300E-016, -3.710018461571120000E-016 ) ) ;
#214 = AXIS2_PLACEMENT_3D ( 'NONE', #8, #200, #172 ) ;
#215 = CARTESIAN_POINT ( 'NONE',  ( 39.89999999999999900, 0.0000000000000000000, 0.0000000000000000000 ) ) ;
#216 = AXIS2_PLACEMENT_3D ( 'NONE', #119, #308, #283 ) ;
#217 = CIRCLE ( 'NONE', #133, 8.634999999999999800 ) ;
#218 = EDGE_LOOP ( 'NONE', ( #199 ) ) ;
#219 =( NAMED_UNIT ( * ) PLANE_ANGLE_UNIT ( ) SI_UNIT ( $, .RADIAN. ) );
#220 = AXIS2_PLACEMENT_3D ( 'NONE', #350, #25, #243 ) ;
#221 = FILL_AREA_STYLE_COLOUR ( '', #310 ) ;
#222 =( NAMED_UNIT ( * ) SI_UNIT ( $, .STERADIAN. ) SOLID_ANGLE_UNIT ( ) );
#223 = AXIS2_PLACEMENT_3D ( 'NONE', #148, #38, #204 ) ;
#224 = FACE_BOUND ( 'NONE', #225, .T. ) ;
#225 = EDGE_LOOP ( 'NONE', ( #151 ) ) ;
#226 = ADVANCED_FACE ( 'NONE', ( #40, #121 ), #343, .T. ) ;
#227 = UNCERTAINTY_MEASURE_WITH_UNIT (LENGTH_MEASURE( 1.000000000000000100E-005 ), #240, 'distance_accuracy_value', 'NONE');
#228 = FACE_OUTER_BOUND ( 'NONE', #207, .T. ) ;
#229 = PRESENTATION_LAYER_ASSIGNMENT (  '', '', ( #138 ) ) ;
#230 = DIRECTION ( 'NONE',  ( 1.000000000000000000, 0.0000000000000000000, 0.0000000000000000000 ) ) ;
#231 = DIRECTION ( 'NONE',  ( 0.0000000000000000000, 0.0000000000000000000, -1.000000000000000000 ) ) ;
#232 = ORIENTED_EDGE ( 'NONE', *, *, #296, .T. ) ;
#233 = AXIS2_PLACEMENT_3D ( 'NONE', #234, #354, #192 ) ;
#234 = CARTESIAN_POINT ( 'NONE',  ( 5.099999999999999600, 0.0000000000000000000, -9.550000000000000700 ) ) ;
#235 = CIRCLE ( 'NONE', #154, 19.95000000000404200 ) ;
#236 = FACE_BOUND ( 'NONE', #136, .T. ) ;
#237 = PRODUCT_DEFINITION_CONTEXT ( 'detailed design', #109, 'design' ) ;
#238 = AXIS2_PLACEMENT_3D ( 'NONE', #213, #210, #183 ) ;
#239 = CARTESIAN_POINT ( 'NONE',  ( 3.200000000015087700, 0.0000000000000000000, 0.0000000000000000000 ) ) ;
#240 =( LENGTH_UNIT ( ) NAMED_UNIT ( * ) SI_UNIT ( .MILLI., .METRE. ) );
#241 = VERTEX_POINT ( 'NONE', #289 ) ;
#242 = DIRECTION ( 'NONE',  ( 0.0000000000000000000, 0.0000000000000000000, -1.000000000000000000 ) ) ;
#243 = DIRECTION ( 'NONE',  ( 1.000000000000000000, 0.0000000000000000000, 0.0000000000000000000 ) ) ;
#244 = AXIS2_PLACEMENT_3D ( 'NONE', #209, #42, #285 ) ;
#245 = PRESENTATION_STYLE_ASSIGNMENT (( #188 ) ) ;
#246 = CYLINDRICAL_SURFACE ( 'NONE', #157, 13.08000000000000000 ) ;
#247 = PLANE ( 'NONE',  #137 ) ;
#248 = ORIENTED_EDGE ( 'NONE', *, *, #164, .F. ) ;
#249 = CONICAL_SURFACE ( 'NONE', #332, 19.95000000000404200, 1.308996939000000000 ) ;
#250 = EDGE_LOOP ( 'NONE', ( #186 ) ) ;
#251 =( GEOMETRIC_REPRESENTATION_CONTEXT ( 3 ) GLOBAL_UNCERTAINTY_ASSIGNED_CONTEXT ( ( #227 ) ) GLOBAL_UNIT_ASSIGNED_CONTEXT ( ( #240, #153, #348 ) ) REPRESENTATION_CONTEXT ( 'NONE', 'WORKASPACE' ) );
#252 = FACE_OUTER_BOUND ( 'NONE', #115, .T. ) ;
#253 = EDGE_LOOP ( 'NONE', ( #232 ) ) ;
#254 = CARTESIAN_POINT ( 'NONE',  ( 39.89999999999999900, 0.0000000000000000000, 0.0000000000000000000 ) ) ;
#255 = MECHANICAL_DESIGN_GEOMETRIC_PRESENTATION_REPRESENTATION (  '', ( #59 ), #251 ) ;
#256 = VERTEX_POINT ( 'NONE', #268 ) ;
#257 = CARTESIAN_POINT ( 'NONE',  ( 37.35999999999999900, 0.0000000000000000000, 0.0000000000000000000 ) ) ;
#258 = DIRECTION ( 'NONE',  ( 1.000000000000000000, -0.0000000000000000000, -0.0000000000000000000 ) ) ;
#259 = DIRECTION ( 'NONE',  ( 0.0000000000000000000, 0.0000000000000000000, 1.000000000000000000 ) ) ;
#260 = COLOUR_RGB ( '',0.7450980392156862900, 0.7450980392156862900, 0.7450980392156862900 ) ;
#261 = EDGE_LOOP ( 'NONE', ( #10 ) ) ;
#262 = EDGE_LOOP ( 'NONE', ( #266 ) ) ;
#263 = DIRECTION ( 'NONE',  ( 1.000000000000000000, -0.0000000000000000000, -0.0000000000000000000 ) ) ;
#264 = UNCERTAINTY_MEASURE_WITH_UNIT (LENGTH_MEASURE( 1.000000000000000100E-005 ), #319, 'distance_accuracy_value', 'NONE');
#265 = VERTEX_POINT ( 'NONE', #26 ) ;
#266 = ORIENTED_EDGE ( 'NONE', *, *, #142, .T. ) ;
#267 = DIRECTION ( 'NONE',  ( -1.000000000000000000, 1.086919471163192800E-017, 0.0000000000000000000 ) ) ;
#268 = CARTESIAN_POINT ( 'NONE',  ( 37.35999999999999900, 0.0000000000000000000, 7.849999999999999600 ) ) ;
#269 = AXIS2_PLACEMENT_3D ( 'NONE', #127, #128, #149 ) ;
#270 = ADVANCED_FACE ( 'NONE', ( #28, #334 ), #249, .T. ) ;
#271 = PRODUCT_CONTEXT ( 'NONE', #113, 'mechanical' ) ;
#272 = FACE_BOUND ( 'NONE', #279, .T. ) ;
#273 =( LENGTH_UNIT ( ) NAMED_UNIT ( * ) SI_UNIT ( .MILLI., .METRE. ) );
#274 = CARTESIAN_POINT ( 'NONE',  ( 5.100000000000595600, 0.0000000000000000000, 12.70000000000509200 ) ) ;
#275 = AXIS2_PLACEMENT_3D ( 'NONE', #96, #120, #282 ) ;
#276 = ORIENTED_EDGE ( 'NONE', *, *, #301, .T. ) ;
#277 = ORIENTED_EDGE ( 'NONE', *, *, #19, .F. ) ;
#278 = VERTEX_POINT ( 'NONE', #324 ) ;
#279 = EDGE_LOOP ( 'NONE', ( #203 ) ) ;
#280 = FACE_OUTER_BOUND ( 'NONE', #111, .T. ) ;
#281 = ORIENTED_EDGE ( 'NONE', *, *, #85, .T. ) ;
#282 = DIRECTION ( 'NONE',  ( 0.0000000000000000000, 0.0000000000000000000, 1.000000000000000000 ) ) ;
#283 = DIRECTION ( 'NONE',  ( 0.0000000000000000000, 0.0000000000000000000, -1.000000000000000000 ) ) ;
#284 = FACE_OUTER_BOUND ( 'NONE', #52, .T. ) ;
#285 = DIRECTION ( 'NONE',  ( 0.0000000000000000000, 0.0000000000000000000, -1.000000000000000000 ) ) ;
#286 =( GEOMETRIC_REPRESENTATION_CONTEXT ( 3 ) GLOBAL_UNCERTAINTY_ASSIGNED_CONTEXT ( ( #320 ) ) GLOBAL_UNIT_ASSIGNED_CONTEXT ( ( #273, #58, #222 ) ) REPRESENTATION_CONTEXT ( 'NONE', 'WORKASPACE' ) );
#287 = DIRECTION ( 'NONE',  ( 0.0000000000000000000, 0.0000000000000000000, 1.000000000000000000 ) ) ;
#288 = PRODUCT ( 'FULLVAC RC1KF2516', 'FULLVAC RC1KF2516', '', ( #271 ) ) ;
#289 = CARTESIAN_POINT ( 'NONE',  ( 5.099999999984913000, -12.85910346561515800, 0.0000000000000000000 ) ) ;
#290 = FACE_OUTER_BOUND ( 'NONE', #21, .T. ) ;
#291 = EDGE_CURVE ( 'NONE', #32, #32, #51, .T. ) ;
#292 = CIRCLE ( 'NONE', #269, 7.849999999999999600 ) ;
#293 = FILL_AREA_STYLE ('',( #221 ) ) ;
#294 = DIRECTION ( 'NONE',  ( 0.0000000000000000000, 0.0000000000000000000, -1.000000000000000000 ) ) ;
#295 =( NAMED_UNIT ( * ) SI_UNIT ( $, .STERADIAN. ) SOLID_ANGLE_UNIT ( ) );
#296 = EDGE_CURVE ( 'NONE', #129, #129, #139, .T. ) ;
#297 = APPLICATION_PROTOCOL_DEFINITION ( 'draft international standard', 'automotive_design', 1998, #109 ) ;
#298 = FACE_OUTER_BOUND ( 'NONE', #147, .T. ) ;
#299 = FACE_OUTER_BOUND ( 'NONE', #317, .T. ) ;
#300 = ADVANCED_FACE ( 'NONE', ( #195, #54 ), #316, .T. ) ;
#301 = EDGE_CURVE ( 'NONE', #329, #329, #235, .T. ) ;
#302 = CIRCLE ( 'NONE', #325, 15.00000000000000000 ) ;
#303 = FACE_OUTER_BOUND ( 'NONE', #62, .T. ) ;
#304 = DIRECTION ( 'NONE',  ( -1.000000000000000000, 0.0000000000000000000, 0.0000000000000000000 ) ) ;
#305 = CARTESIAN_POINT ( 'NONE',  ( 39.89999999999999900, 0.0000000000000000000, 0.0000000000000000000 ) ) ;
#306 = SURFACE_STYLE_FILL_AREA ( #293 ) ;
#307 = DIRECTION ( 'NONE',  ( 0.0000000000000000000, 0.0000000000000000000, 1.000000000000000000 ) ) ;
#308 = DIRECTION ( 'NONE',  ( 1.000000000000000000, 0.0000000000000000000, 0.0000000000000000000 ) ) ;
#309 = CARTESIAN_POINT ( 'NONE',  ( 0.0000000000000000000, 0.0000000000000000000, 0.0000000000000000000 ) ) ;
#310 = COLOUR_RGB ( '',0.7450980392156862900, 0.7450980392156862900, 0.7450980392156862900 ) ;
#311 = AXIS2_PLACEMENT_3D ( 'NONE', #46, #80, #50 ) ;
#312 = CONICAL_SURFACE ( 'NONE', #214, 15.00000000000310300, 1.308996938999999400 ) ;
#313 = DIRECTION ( 'NONE',  ( 0.0000000000000000000, 0.0000000000000000000, 1.000000000000000000 ) ) ;
#314 = DIRECTION ( 'NONE',  ( -1.000000000000000000, 0.0000000000000000000, 0.0000000000000000000 ) ) ;
#315 = CARTESIAN_POINT ( 'NONE',  ( 0.0000000000000000000, 0.0000000000000000000, 0.0000000000000000000 ) ) ;
#316 = CYLINDRICAL_SURFACE ( 'NONE', #126, 9.550000000000000700 ) ;
#317 = EDGE_LOOP ( 'NONE', ( #248 ) ) ;
#318 = DIRECTION ( 'NONE',  ( 0.0000000000000000000, 0.0000000000000000000, 1.000000000000000000 ) ) ;
#319 =( LENGTH_UNIT ( ) NAMED_UNIT ( * ) SI_UNIT ( .MILLI., .METRE. ) );
#320 = UNCERTAINTY_MEASURE_WITH_UNIT (LENGTH_MEASURE( 1.000000000000000100E-005 ), #273, 'distance_accuracy_value', 'NONE');
#321 = VERTEX_POINT ( 'NONE', #351 ) ;
#322 = CONICAL_SURFACE ( 'NONE', #223, 12.70000000000509200, 0.1174346897969024000 ) ;
#323 = CARTESIAN_POINT ( 'NONE',  ( 0.0000000000000000000, 0.0000000000000000000, -13.08000000000000000 ) ) ;
#324 = CARTESIAN_POINT ( 'NONE',  ( 0.0000000000000000000, 0.0000000000000000000, -19.94999999999999900 ) ) ;
#325 = AXIS2_PLACEMENT_3D ( 'NONE', #215, #314, #349 ) ;
#326 = VERTEX_POINT ( 'NONE', #159 ) ;
#327 = ORIENTED_EDGE ( 'NONE', *, *, #74, .T. ) ;
#328 = ADVANCED_FACE ( 'NONE', ( #168, #102 ), #105, .T. ) ;
#329 = VERTEX_POINT ( 'NONE', #163 ) ;
#330 = CYLINDRICAL_SURFACE ( 'NONE', #177, 8.634999999999999800 ) ;
#331 = ORIENTED_EDGE ( 'NONE', *, *, #190, .F. ) ;
#332 = AXIS2_PLACEMENT_3D ( 'NONE', #211, #267, #344 ) ;
#333 = ADVANCED_FACE ( 'NONE', ( #71, #82 ), #247, .T. ) ;
#334 = FACE_OUTER_BOUND ( 'NONE', #76, .T. ) ;
#335 = ORIENTED_EDGE ( 'NONE', *, *, #89, .T. ) ;
#336 = DIRECTION ( 'NONE',  ( -1.000000000000000000, 0.0000000000000000000, 0.0000000000000000000 ) ) ;
#337 = CARTESIAN_POINT ( 'NONE',  ( 37.35999999999999900, 0.0000000000000000000, 0.0000000000000000000 ) ) ;
#338 = AXIS2_PLACEMENT_3D ( 'NONE', #257, #340, #179 ) ;
#339 = SURFACE_STYLE_FILL_AREA ( #187 ) ;
#340 = DIRECTION ( 'NONE',  ( -1.000000000000000000, 0.0000000000000000000, 0.0000000000000000000 ) ) ;
#341 = ORIENTED_EDGE ( 'NONE', *, *, #301, .F. ) ;
#342 = CARTESIAN_POINT ( 'NONE',  ( 5.099999999984913000, -2.065146995177270000E-017, 0.0000000000000000000 ) ) ;
#343 = PLANE ( 'NONE',  #311 ) ;
#344 = DIRECTION ( 'NONE',  ( 0.0000000000000000000, -1.000000000000000000, 0.0000000000000000000 ) ) ;
#345 = AXIS2_PLACEMENT_3D ( 'NONE', #156, #263, #287 ) ;
#346 = FACE_BOUND ( 'NONE', #112, .T. ) ;
#347 = ORIENTED_EDGE ( 'NONE', *, *, #12, .F. ) ;
#348 =( NAMED_UNIT ( * ) SI_UNIT ( $, .STERADIAN. ) SOLID_ANGLE_UNIT ( ) );
#349 = DIRECTION ( 'NONE',  ( 0.0000000000000000000, 0.0000000000000000000, 1.000000000000000000 ) ) ;
#350 = CARTESIAN_POINT ( 'NONE',  ( 0.0000000000000000000, 0.0000000000000000000, 0.0000000000000000000 ) ) ;
#351 = CARTESIAN_POINT ( 'NONE',  ( 39.89999999999999900, 0.0000000000000000000, 15.00000000000000000 ) ) ;
#352 = VERTEX_POINT ( 'NONE', #87 ) ;
#353 = CYLINDRICAL_SURFACE ( 'NONE', #100, 7.849999999999999600 ) ;
#354 = DIRECTION ( 'NONE',  ( 1.000000000000000000, -0.0000000000000000000, 0.0000000000000000000 ) ) ;
ENDSEC;
END-ISO-10303-21;
